  0
SECTION
  2
HEADER
  9
$ACADVER
  1
AC1009
  9
$MEASUREMENT
  70
1
  9
$INSUNITS
  70
4
  9
$DIMLFAC
  40
1
  9
$INSBASE
  10
0.0
  20
0.0
  30
0.0
  9
$EXTMIN
  10
-30.8
  20
-50.8
  9
$EXTMAX
  10
493.300929797344
  20
89.158
  9
$LIMMIN
  10
-30.8
  20
-50.8
  9
$LIMMAX
  10
493.300929797344
  20
89.158
  9
$CLAYER
  8
0
  0
ENDSEC
  0
SECTION
  2
TABLES
  0
TABLE
  2
LTYPE
  70
2
  0
LTYPE
  2
CONTINUOUS
  70
65
  3
Solid line
  72
65
  73
0
  40
0
  0
LTYPE
  2
DASHED
  70
65
  3
 _ _ _ _ _ _ _ _ _ _ _ _ _ _ _ _ _ _ _ _ _ _
  72
65
  73
2
  40
2
  49
1
  49
-1
  0
ENDTAB
  0
TABLE
  2
LAYER
  70
1
  0
LAYER
  2
0
  70
0
  62
7
  6
CONTINUOUS
  0
ENDTAB
  0
ENDSEC
  0
SECTION
  2
BLOCKS
  0
ENDSEC
  0
SECTION
  2
ENTITIES
  0
CIRCLE
  8
0
  10
58.748116224668
  20
23.5
  30
0
  40
1.25
  0
CIRCLE
  8
0
  10
74.004261224668
  20
53.5
  30
-3.5
  40
1.5
  0
CIRCLE
  8
0
  10
43.491971224668
  20
53.5
  30
-3.5
  40
1.5
  0
CIRCLE
  8
0
  10
36.248116224668
  20
48.99
  30
-2
  40
1.25
  0
CIRCLE
  8
0
  10
81.248116224668
  20
48.99
  30
-2
  40
1.25
  0
CIRCLE
  8
0
  10
91.748116224668
  20
72.408
  30
-2
  40
1.5
  0
CIRCLE
  8
0
  10
25.748116224668
  20
72.408
  30
-2
  40
1.5
  0
CIRCLE
  8
0
  10
43.491971224668
  20
53.5
  30
2
  40
2.75
  0
CIRCLE
  8
0
  10
74.004261224668
  20
53.5
  30
2
  40
2.75
  0
LINE
  8
0
  10
49.748116224668
  20
62.521274955324
  30
-2
  11
67.748116224668
  21
62.521274955324
  31
-2
  0
ARC
  8
0
  10
67.748116224668
  20
63.521274955324
  30
-2
  40
1
  50
270
  51
360
  0
LINE
  8
0
  10
68.748116224668
  20
63.521274955324
  30
-2
  11
68.748116224668
  21
68.516175032295
  31
-2
  0
ARC
  8
0
  10
67.748116224668
  20
68.516175032295
  30
-2
  40
1
  50
0
  51
107.32
  0
LINE
  8
0
  10
67.450408094324
  20
69.470831970219
  30
-2
  11
59.247099783948
  21
66.912644329505
  31
-2
  0
ARC
  8
0
  10
58.949391653604
  20
67.867301267429
  30
-2
  40
1
  50
253.343887310079
  51
287.320000000001
  0
LINE
  8
0
  10
58.662764889
  20
66.90925894174
  30
-2
  11
50.034742989272
  21
69.490587486145
  31
-2
  0
ARC
  8
0
  10
49.748116224668
  20
68.532545160455
  30
-2
  40
1
  50
73.343887310079
  51
180
  0
LINE
  8
0
  10
48.748116224668
  20
68.532545160455
  30
-2
  11
48.748116224668
  21
63.521274955324
  31
-2
  0
ARC
  8
0
  10
49.748116224668
  20
63.521274955324
  30
-2
  40
1
  50
180
  51
270
  0
LINE
  8
0
  10
47.748116224668
  20
20
  30
5
  11
69.748116224668
  21
20
  31
5
  0
ARC
  8
0
  10
69.748116224668
  20
21
  30
5
  40
1
  50
270
  51
360
  0
LINE
  8
0
  10
70.748116224668
  20
21
  30
5
  11
70.748116224668
  21
27
  31
5
  0
ARC
  8
0
  10
71.748116224668
  20
27
  30
5
  40
1
  50
90
  51
180
  0
LINE
  8
0
  10
71.748116224668
  20
28
  30
5
  11
76.748116224668
  21
28
  31
5
  0
ARC
  8
0
  10
76.748116224668
  20
29
  30
5
  40
1
  50
270
  51
359.999998390644
  0
LINE
  8
0
  10
77.748116224668
  20
28.999999971911
  30
5
  11
77.748116701893
  21
45.490000262067
  31
5
  0
ARC
  8
0
  10
78.748116701893
  20
45.490000233979
  30
5
  40
1
  50
89.999994637606
  51
179.999998390644
  0
LINE
  8
0
  10
78.748116795484
  20
46.490000233979
  30
5
  11
81.248116231353
  21
46.49
  31
5
  0
ARC
  8
0
  10
81.248116224668
  20
48.99
  30
5
  40
2.5
  50
270
  51
450
  0
LINE
  8
0
  10
81.248116224668
  20
51.49
  30
5
  11
78.746487423879
  21
51.49
  31
5
  0
ARC
  8
0
  10
78.746487423879
  20
52.49
  30
5
  40
1
  50
179.636637055222
  51
270
  0
LINE
  8
0
  10
77.746507533531
  20
52.496341837255
  30
5
  11
77.748096115016
  21
52.746829113254
  31
5
  0
ARC
  8
0
  10
76.748116224668
  20
52.753170950508
  30
5
  40
1
  50
359.636637055229
  51
360
  0
LINE
  8
0
  10
77.748116224668
  20
52.753170950508
  30
5
  11
77.748116224668
  21
68.908
  31
5
  0
ARC
  8
0
  10
78.748116224668
  20
68.908
  30
5
  40
1
  50
90
  51
180
  0
LINE
  8
0
  10
78.748116224668
  20
69.908
  30
5
  11
91.748116224668
  21
69.908
  31
5
  0
ARC
  8
0
  10
91.748116224668
  20
72.408
  30
5
  40
2.5
  50
270
  51
344.022413323804
  0
LINE
  8
0
  10
94.151539844525
  20
71.719846744166
  30
5
  11
97.457601897279
  21
83.266500863631
  31
5
  0
ARC
  8
0
  10
96.496232449336
  20
83.541762165965
  30
5
  40
1
  50
344.022413323804
  51
361.613688604359
  0
ARC
  8
0
  10
91.748116224668
  20
83.408
  30
5
  40
5.75
  50
1.613688604359
  51
173.632746995752
  0
ARC
  8
0
  10
85.039753828353
  20
84.156581297996
  30
5
  40
1
  50
287.324089539971
  51
353.632746995752
  0
LINE
  8
0
  10
85.337530097473
  20
83.201945611701
  30
5
  11
59.045892493788
  21
75.000884340826
  31
5
  0
ARC
  8
0
  10
58.748116224668
  20
75.955520027122
  30
5
  40
1
  50
252.675910460027
  51
287.324089539972
  0
LINE
  8
0
  10
58.450339955548
  20
75.000884340826
  30
5
  11
32.158702351863
  21
83.201945611701
  31
5
  0
ARC
  8
0
  10
32.456478620983
  20
84.156581297996
  30
5
  40
1
  50
186.367253004248
  51
252.675910460028
  0
ARC
  8
0
  10
25.748116224668
  20
83.408
  30
5
  40
5.75
  50
6.367253004248
  51
178.386311395641
  0
ARC
  8
0
  10
21
  20
83.541762165965
  30
5
  40
1
  50
178.386311395641
  51
195.977586676196
  0
LINE
  8
0
  10
20.038630552057
  20
83.266500863631
  30
5
  11
23.344692604811
  21
71.719846744166
  31
5
  0
ARC
  8
0
  10
25.748116224668
  20
72.408
  30
5
  40
2.5
  50
195.977586676196
  51
270
  0
LINE
  8
0
  10
25.748116224668
  20
69.908
  30
5
  11
38.748116224668
  21
69.908
  31
5
  0
ARC
  8
0
  10
38.748116224668
  20
68.908
  30
5
  40
1
  50
0
  51
90
  0
LINE
  8
0
  10
39.748116224668
  20
68.908
  30
5
  11
39.748116224668
  21
52.49
  31
5
  0
ARC
  8
0
  10
38.748116224668
  20
52.49
  30
5
  40
1
  50
-90
  51
0
  0
LINE
  8
0
  10
38.748116224668
  20
51.49
  30
5
  11
36.248116224668
  21
51.49
  31
5
  0
ARC
  8
0
  10
36.248116224668
  20
48.99
  30
5
  40
2.5
  50
90
  51
270
  0
LINE
  8
0
  10
36.248116224668
  20
46.49
  30
5
  11
38.748116224668
  21
46.49
  31
5
  0
ARC
  8
0
  10
38.748116224668
  20
45.49
  30
5
  40
1
  50
0
  51
90
  0
LINE
  8
0
  10
39.748116224668
  20
45.49
  30
5
  11
39.748116224668
  21
29
  31
5
  0
ARC
  8
0
  10
40.748116224668
  20
29
  30
5
  40
1
  50
180
  51
270
  0
LINE
  8
0
  10
40.748116224668
  20
28
  30
5
  11
45.748116224668
  21
28
  31
5
  0
ARC
  8
0
  10
45.748116224668
  20
27
  30
5
  40
1
  50
0
  51
90
  0
LINE
  8
0
  10
46.748116224668
  20
27
  30
5
  11
46.748116224668
  21
21
  31
5
  0
ARC
  8
0
  10
47.748116224668
  20
21
  30
5
  40
1
  50
180
  51
270
  0
LINE
  8
0
  10
50.748116224668
  20
29.5
  30
0
  11
66.748116224668
  21
29.5
  31
0
  0
ARC
  8
0
  10
66.748116224668
  20
30.5
  30
0
  40
1
  50
270
  51
360
  0
LINE
  8
0
  10
67.748116224668
  20
30.5
  30
0
  11
67.748116224668
  21
31.5
  31
0
  0
ARC
  8
0
  10
66.748116224668
  20
31.5
  30
0
  40
1
  50
0
  51
90
  0
LINE
  8
0
  10
66.748116224668
  20
32.5
  30
0
  11
50.748116224668
  21
32.5
  31
0
  0
ARC
  8
0
  10
50.748116224668
  20
31.5
  30
0
  40
1
  50
90
  51
180
  0
LINE
  8
0
  10
49.748116224668
  20
31.5
  30
0
  11
49.748116224668
  21
30.5
  31
0
  0
ARC
  8
0
  10
50.748116224668
  20
30.5
  30
0
  40
1
  50
180
  51
270
  0
LINE
  8
0
  10
52.008244764576
  20
35.249329279284
  30
-2
  11
65.48798768476
  21
35.249329279284
  31
-2
  0
ARC
  8
0
  10
65.48798768476
  20
36.249329279284
  30
-2
  40
1
  50
270
  51
360
  0
LINE
  8
0
  10
66.48798768476
  20
36.249329279284
  30
-2
  11
66.48798768476
  21
58.921790028187
  31
-2
  0
ARC
  8
0
  10
65.48798768476
  20
58.921790028187
  30
-2
  40
1
  50
0
  51
90
  0
LINE
  8
0
  10
65.48798768476
  20
59.921790028187
  30
-2
  11
52.008244764576
  21
59.921790028187
  31
-2
  0
ARC
  8
0
  10
52.008244764576
  20
58.921790028187
  30
-2
  40
1
  50
90
  51
180
  0
LINE
  8
0
  10
51.008244764576
  20
58.921790028187
  30
-2
  11
51.008244764576
  21
36.249329279284
  31
-2
  0
ARC
  8
0
  10
52.008244764576
  20
36.249329279284
  30
-2
  40
1
  50
180
  51
270
  0
LINE
  8
0
  10
28.748116224669
  20
80.408
  30
-2
  11
28.748116224669
  21
86.408
  31
-2
  0
LINE
  8
0
  10
28.748116224669
  20
86.408
  30
-2
  11
22.748116224669
  21
86.408
  31
-2
  0
LINE
  8
0
  10
22.748116224669
  20
86.408
  30
-2
  11
22.748116224669
  21
80.408
  31
-2
  0
LINE
  8
0
  10
22.748116224669
  20
80.408
  30
-2
  11
28.748116224669
  21
80.408
  31
-2
  0
LINE
  8
0
  10
94.748116224668
  20
80.408
  30
-2
  11
94.748116224668
  21
86.408
  31
-2
  0
LINE
  8
0
  10
94.748116224668
  20
86.408
  30
-2
  11
88.748116224668
  21
86.408
  31
-2
  0
LINE
  8
0
  10
88.748116224668
  20
86.408
  30
-2
  11
88.748116224668
  21
80.408
  31
-2
  0
LINE
  8
0
  10
88.748116224668
  20
80.408
  30
-2
  11
94.748116224668
  21
80.408
  31
-2
  0
LINE
  8
0
  10
47.748116224668
  20
20
  30
7
  11
69.748116224668
  21
20
  31
7
  0
ARC
  8
0
  10
69.748116224668
  20
21
  30
7
  40
1
  50
270
  51
360
  0
LINE
  8
0
  10
70.748116224668
  20
21
  30
7
  11
70.748116224668
  21
27
  31
7
  0
LINE
  8
0
  10
70.748116224668
  20
27
  30
7
  11
46.748116224668
  21
27
  31
7
  0
LINE
  8
0
  10
46.748116224668
  20
27
  30
7
  11
46.748116224668
  21
21
  31
7
  0
ARC
  8
0
  10
47.748116224668
  20
21
  30
7
  40
1
  50
180
  51
270
  0
ARC
  8
0
  10
81.248116224668
  20
48.99
  30
7
  40
2.5
  50
270
  51
450
  0
LINE
  8
0
  10
81.248116224668
  20
51.49
  30
7
  11
78.746487423879
  21
51.49
  31
7
  0
LINE
  8
0
  10
78.746487423879
  20
51.49
  30
7
  11
78.748116795484
  21
46.490000233979
  31
7
  0
LINE
  8
0
  10
78.748116795484
  20
46.490000233979
  30
7
  11
81.248116231353
  21
46.49
  31
7
  0
LINE
  8
0
  10
36.248116224668
  20
46.49
  30
7
  11
38.748116224668
  21
46.49
  31
7
  0
LINE
  8
0
  10
38.748116224668
  20
46.49
  30
7
  11
38.748116224668
  21
51.49
  31
7
  0
LINE
  8
0
  10
38.748116224668
  20
51.49
  30
7
  11
36.248116224668
  21
51.49
  31
7
  0
ARC
  8
0
  10
36.248116224668
  20
48.99
  30
7
  40
2.5
  50
90
  51
270
  0
CIRCLE
  8
0
  10
29.748116224668
  20
72.408
  30
-2
  40
1.5
  0
CIRCLE
  8
0
  10
33.748116224668
  20
72.408
  30
-2
  40
1.5
  0
CIRCLE
  8
0
  10
87.748116224668
  20
72.408
  30
-2
  40
1.5
  0
CIRCLE
  8
0
  10
83.748116224668
  20
72.408
  30
-2
  40
1.5
  0
TEXT
  8
0
  40
2.54
  72
0
  10
55.248116224668
  20
10
  30
0
  1
Top
  50
0
  0
LINE
  8
0
  6
DASHED
  10
130.244348674004
  20
89.158
  30
5
  11
152.244348674004
  21
89.158
  31
5
  0
ARC
  8
0
  6
DASHED
  10
152.244348674004
  20
88.158
  30
5
  40
1
  50
0
  51
90
  0
LINE
  8
0
  6
DASHED
  10
153.244348674004
  20
88.158
  30
5
  11
153.244348674004
  21
82.158
  31
5
  0
ARC
  8
0
  6
DASHED
  10
154.244348674004
  20
82.158
  30
5
  40
1
  50
180
  51
270
  0
LINE
  8
0
  6
DASHED
  10
154.244348674004
  20
81.158
  30
5
  11
159.244348674004
  21
81.158
  31
5
  0
ARC
  8
0
  6
DASHED
  10
159.244348674004
  20
80.158
  30
5
  40
1
  50
0
  51
90
  0
LINE
  8
0
  6
DASHED
  10
160.244348674004
  20
80.158000028089
  30
5
  11
160.244349151229
  21
63.667999737933
  31
5
  0
ARC
  8
0
  6
DASHED
  10
161.244349151229
  20
63.667999766021
  30
5
  40
1
  50
180
  51
270
  0
LINE
  8
0
  6
DASHED
  10
161.24434924482
  20
62.667999766021
  30
5
  11
163.744348680689
  21
62.668
  31
5
  0
ARC
  8
0
  6
DASHED
  10
163.744348674004
  20
60.168
  30
5
  40
2.5
  50
270
  51
450
  0
LINE
  8
0
  6
DASHED
  10
163.744348674004
  20
57.668
  30
5
  11
161.242719873215
  21
57.668
  31
5
  0
ARC
  8
0
  6
DASHED
  10
161.242719873215
  20
56.668
  30
5
  40
1
  50
90
  51
180.363362944778
  0
LINE
  8
0
  6
DASHED
  10
160.242739982867
  20
56.661658162745
  30
5
  11
160.244328564352
  21
56.411170886746
  31
5
  0
ARC
  8
0
  6
DASHED
  10
159.244348674004
  20
56.404829049492
  30
5
  40
1
  50
0
  51
0.363362944771
  0
LINE
  8
0
  6
DASHED
  10
160.244348674004
  20
56.404829049492
  30
5
  11
160.244348674004
  21
40.25
  31
5
  0
ARC
  8
0
  6
DASHED
  10
161.244348674004
  20
40.25
  30
5
  40
1
  50
180
  51
270
  0
LINE
  8
0
  6
DASHED
  10
161.244348674004
  20
39.25
  30
5
  11
174.244348674004
  21
39.25
  31
5
  0
ARC
  8
0
  6
DASHED
  10
174.244348674004
  20
36.75
  30
5
  40
2.5
  50
15.977586676196
  51
90
  0
LINE
  8
0
  6
DASHED
  10
176.647772293861
  20
37.438153255834
  30
5
  11
179.953834346615
  21
25.891499136369
  31
5
  0
ARC
  8
0
  6
DASHED
  10
178.992464898672
  20
25.616237834035
  30
5
  40
1
  50
358.386311395641
  51
375.977586676196
  0
ARC
  8
0
  6
DASHED
  10
174.244348674004
  20
25.75
  30
5
  40
5.75
  50
186.367253004248
  51
358.386311395641
  0
ARC
  8
0
  6
DASHED
  10
167.535986277689
  20
25.001418702004
  30
5
  40
1
  50
6.367253004248
  51
72.675910460029
  0
LINE
  8
0
  6
DASHED
  10
167.833762546809
  20
25.956054388299
  30
5
  11
141.542124943124
  21
34.157115659174
  31
5
  0
ARC
  8
0
  6
DASHED
  10
141.244348674004
  20
33.202479972878
  30
5
  40
1
  50
72.675910460028
  51
107.324089539973
  0
LINE
  8
0
  6
DASHED
  10
140.946572404884
  20
34.157115659174
  30
5
  11
114.654934801199
  21
25.956054388299
  31
5
  0
ARC
  8
0
  6
DASHED
  10
114.952711070319
  20
25.001418702004
  30
5
  40
1
  50
107.324089539972
  51
173.632746995752
  0
ARC
  8
0
  6
DASHED
  10
108.244348674004
  20
25.75
  30
5
  40
5.75
  50
181.613688604359
  51
353.632746995752
  0
ARC
  8
0
  6
DASHED
  10
103.496232449336
  20
25.616237834035
  30
5
  40
1
  50
164.022413323804
  51
181.613688604359
  0
LINE
  8
0
  6
DASHED
  10
102.534863001393
  20
25.891499136369
  30
5
  11
105.840925054147
  21
37.438153255834
  31
5
  0
ARC
  8
0
  6
DASHED
  10
108.244348674004
  20
36.75
  30
5
  40
2.5
  50
90
  51
164.022413323804
  0
LINE
  8
0
  6
DASHED
  10
108.244348674004
  20
39.25
  30
5
  11
121.244348674004
  21
39.25
  31
5
  0
ARC
  8
0
  6
DASHED
  10
121.244348674004
  20
40.25
  30
5
  40
1
  50
-90
  51
0
  0
LINE
  8
0
  6
DASHED
  10
122.244348674004
  20
40.25
  30
5
  11
122.244348674004
  21
56.668
  31
5
  0
ARC
  8
0
  6
DASHED
  10
121.244348674004
  20
56.668
  30
5
  40
1
  50
0
  51
90
  0
LINE
  8
0
  6
DASHED
  10
121.244348674004
  20
57.668
  30
5
  11
118.744348674004
  21
57.668
  31
5
  0
ARC
  8
0
  6
DASHED
  10
118.744348674004
  20
60.168
  30
5
  40
2.5
  50
90
  51
270
  0
LINE
  8
0
  6
DASHED
  10
118.744348674004
  20
62.668
  30
5
  11
121.244348674004
  21
62.668
  31
5
  0
ARC
  8
0
  6
DASHED
  10
121.244348674004
  20
63.668
  30
5
  40
1
  50
-90
  51
0
  0
LINE
  8
0
  6
DASHED
  10
122.244348674004
  20
63.668
  30
5
  11
122.244348674004
  21
80.158
  31
5
  0
ARC
  8
0
  6
DASHED
  10
123.244348674004
  20
80.158
  30
5
  40
1
  50
90
  51
180
  0
LINE
  8
0
  6
DASHED
  10
123.244348674004
  20
81.158
  30
5
  11
128.244348674004
  21
81.158
  31
5
  0
ARC
  8
0
  6
DASHED
  10
128.244348674004
  20
82.158
  30
5
  40
1
  50
-90
  51
0
  0
LINE
  8
0
  6
DASHED
  10
129.244348674004
  20
82.158
  30
5
  11
129.244348674004
  21
88.158
  31
5
  0
ARC
  8
0
  6
DASHED
  10
130.244348674004
  20
88.158
  30
5
  40
1
  50
90
  51
180
  0
CIRCLE
  8
0
  10
141.244348674004
  20
85.658
  30
0
  40
1.25
  0
CIRCLE
  8
0
  10
156.500493674004
  20
55.658
  30
-3.5
  40
1.5
  0
CIRCLE
  8
0
  10
125.988203674004
  20
55.658
  30
-3.5
  40
1.5
  0
CIRCLE
  8
0
  10
118.744348674004
  20
60.168
  30
-2
  40
1.25
  0
CIRCLE
  8
0
  10
163.744348674004
  20
60.168
  30
-2
  40
1.25
  0
CIRCLE
  8
0
  10
174.244348674004
  20
36.75
  30
-2
  40
1.5
  0
CIRCLE
  8
0
  10
108.244348674004
  20
36.75
  30
-2
  40
1.5
  0
CIRCLE
  8
0
  10
125.988203674004
  20
55.658
  30
3
  40
2.75
  0
CIRCLE
  8
0
  10
156.500493674004
  20
55.658
  30
3
  40
2.75
  0
LINE
  8
0
  10
132.244348674004
  20
46.636725044676
  30
-2
  11
150.244348674004
  21
46.636725044676
  31
-2
  0
ARC
  8
0
  10
150.244348674004
  20
45.636725044676
  30
-2
  40
1
  50
0
  51
90
  0
LINE
  8
0
  10
151.244348674004
  20
45.636725044676
  30
-2
  11
151.244348674004
  21
40.641824967705
  31
-2
  0
ARC
  8
0
  10
150.244348674004
  20
40.641824967705
  30
-2
  40
1
  50
252.679999999999
  51
360
  0
LINE
  8
0
  10
149.94664054366
  20
39.687168029781
  30
-2
  11
141.743332233284
  21
42.245355670495
  31
-2
  0
ARC
  8
0
  10
141.44562410294
  20
41.290698732571
  30
-2
  40
1
  50
72.679999999999
  51
106.656112689921
  0
LINE
  8
0
  10
141.158997338336
  20
42.24874105826
  30
-2
  11
132.530975438608
  21
39.667412513855
  31
-2
  0
ARC
  8
0
  10
132.244348674004
  20
40.625454839545
  30
-2
  40
1
  50
180
  51
286.656112689921
  0
LINE
  8
0
  10
131.244348674004
  20
40.625454839545
  30
-2
  11
131.244348674004
  21
45.636725044676
  31
-2
  0
ARC
  8
0
  10
132.244348674004
  20
45.636725044676
  30
-2
  40
1
  50
90
  51
180
  0
LINE
  8
0
  10
133.244348674004
  20
79.658
  30
0
  11
149.244348674004
  21
79.658
  31
0
  0
ARC
  8
0
  10
149.244348674004
  20
78.658
  30
0
  40
1
  50
0
  51
90
  0
LINE
  8
0
  10
150.244348674004
  20
78.658
  30
0
  11
150.244348674004
  21
77.658
  31
0
  0
ARC
  8
0
  10
149.244348674004
  20
77.658
  30
0
  40
1
  50
270
  51
360
  0
LINE
  8
0
  10
149.244348674004
  20
76.658
  30
0
  11
133.244348674004
  21
76.658
  31
0
  0
ARC
  8
0
  10
133.244348674004
  20
77.658
  30
0
  40
1
  50
180
  51
270
  0
LINE
  8
0
  10
132.244348674004
  20
77.658
  30
0
  11
132.244348674004
  21
78.658
  31
0
  0
ARC
  8
0
  10
133.244348674004
  20
78.658
  30
0
  40
1
  50
90
  51
180
  0
LINE
  8
0
  10
134.504477213912
  20
73.908670720716
  30
-2
  11
147.984220134096
  21
73.908670720716
  31
-2
  0
ARC
  8
0
  10
147.984220134096
  20
72.908670720716
  30
-2
  40
1
  50
0
  51
90
  0
LINE
  8
0
  10
148.984220134096
  20
72.908670720716
  30
-2
  11
148.984220134096
  21
50.236209971813
  31
-2
  0
ARC
  8
0
  10
147.984220134096
  20
50.236209971813
  30
-2
  40
1
  50
270
  51
360
  0
LINE
  8
0
  10
147.984220134096
  20
49.236209971813
  30
-2
  11
134.504477213912
  21
49.236209971813
  31
-2
  0
ARC
  8
0
  10
134.504477213912
  20
50.236209971813
  30
-2
  40
1
  50
180
  51
270
  0
LINE
  8
0
  10
133.504477213912
  20
50.236209971813
  30
-2
  11
133.504477213912
  21
72.908670720716
  31
-2
  0
ARC
  8
0
  10
134.504477213912
  20
72.908670720716
  30
-2
  40
1
  50
90
  51
180
  0
LINE
  8
0
  10
111.244348674005
  20
28.75
  30
-2
  11
111.244348674005
  21
22.75
  31
-2
  0
LINE
  8
0
  10
111.244348674005
  20
22.75
  30
-2
  11
105.244348674005
  21
22.75
  31
-2
  0
LINE
  8
0
  10
105.244348674005
  20
22.75
  30
-2
  11
105.244348674005
  21
28.75
  31
-2
  0
LINE
  8
0
  10
105.244348674005
  20
28.75
  30
-2
  11
111.244348674005
  21
28.75
  31
-2
  0
LINE
  8
0
  10
177.244348674004
  20
28.75
  30
-2
  11
177.244348674004
  21
22.75
  31
-2
  0
LINE
  8
0
  10
177.244348674004
  20
22.75
  30
-2
  11
171.244348674004
  21
22.75
  31
-2
  0
LINE
  8
0
  10
171.244348674004
  20
22.75
  30
-2
  11
171.244348674004
  21
28.75
  31
-2
  0
LINE
  8
0
  10
171.244348674004
  20
28.75
  30
-2
  11
177.244348674004
  21
28.75
  31
-2
  0
LINE
  8
0
  6
DASHED
  10
130.244348674004
  20
89.158
  30
-2
  11
152.244348674004
  21
89.158
  31
-2
  0
ARC
  8
0
  6
DASHED
  10
152.244348674004
  20
88.158
  30
-2
  40
1
  50
0
  51
90
  0
LINE
  8
0
  6
DASHED
  10
153.244348674004
  20
88.158
  30
-2
  11
153.244348674004
  21
82.158
  31
-2
  0
LINE
  8
0
  6
DASHED
  10
153.244348674004
  20
82.158
  30
-2
  11
129.244348674004
  21
82.158
  31
-2
  0
LINE
  8
0
  6
DASHED
  10
129.244348674004
  20
82.158
  30
-2
  11
129.244348674004
  21
88.158
  31
-2
  0
ARC
  8
0
  6
DASHED
  10
130.244348674004
  20
88.158
  30
-2
  40
1
  50
90
  51
180
  0
ARC
  8
0
  6
DASHED
  10
163.744348674004
  20
60.168
  30
-2
  40
2.5
  50
270
  51
450
  0
LINE
  8
0
  6
DASHED
  10
163.744348674004
  20
57.668
  30
-2
  11
161.242719873215
  21
57.668
  31
-2
  0
LINE
  8
0
  6
DASHED
  10
161.242719873215
  20
57.668
  30
-2
  11
161.24434924482
  21
62.667999766021
  31
-2
  0
LINE
  8
0
  6
DASHED
  10
161.24434924482
  20
62.667999766021
  30
-2
  11
163.744348680689
  21
62.668
  31
-2
  0
LINE
  8
0
  6
DASHED
  10
118.744348674004
  20
62.668
  30
-2
  11
121.244348674004
  21
62.668
  31
-2
  0
LINE
  8
0
  6
DASHED
  10
121.244348674004
  20
62.668
  30
-2
  11
121.244348674004
  21
57.668
  31
-2
  0
LINE
  8
0
  6
DASHED
  10
121.244348674004
  20
57.668
  30
-2
  11
118.744348674004
  21
57.668
  31
-2
  0
ARC
  8
0
  6
DASHED
  10
118.744348674004
  20
60.168
  30
-2
  40
2.5
  50
90
  51
270
  0
CIRCLE
  8
0
  10
112.244348674004
  20
36.75
  30
-2
  40
1.5
  0
CIRCLE
  8
0
  10
116.244348674004
  20
36.75
  30
-2
  40
1.5
  0
CIRCLE
  8
0
  10
170.244348674004
  20
36.75
  30
-2
  40
1.5
  0
CIRCLE
  8
0
  10
166.244348674004
  20
36.75
  30
-2
  40
1.5
  0
TEXT
  8
0
  40
2.54
  72
0
  10
137.744348674004
  20
10
  30
0
  1
Bottom
  50
0
  0
LINE
  8
0
  10
254.150464898672
  20
25
  30
77.496232449336
  11
254.150464898672
  21
20
  31
77.496232449336
  0
LINE
  8
0
  10
254.150464898672
  20
20
  30
77.496232449336
  11
184.992464898672
  21
20
  31
77.496232449336
  0
LINE
  8
0
  10
184.992464898672
  20
20
  30
77.496232449336
  11
184.992464898672
  21
25
  31
77.496232449336
  0
LINE
  8
0
  10
184.992464898672
  20
25
  30
77.496232449336
  11
254.150464898672
  21
25
  31
77.496232449336
  0
LINE
  8
0
  6
DASHED
  10
251.900464898672
  20
27
  30
39.998116224668
  11
251.900464898672
  21
20
  31
39.998116224668
  0
LINE
  8
0
  6
DASHED
  10
251.900464898672
  20
20
  30
39.998116224668
  11
249.400464898672
  21
20
  31
39.998116224668
  0
LINE
  8
0
  6
DASHED
  10
249.400464898672
  20
20
  30
39.998116224668
  11
249.400464898672
  21
27
  31
39.998116224668
  0
LINE
  8
0
  6
DASHED
  10
249.400464898672
  20
27
  30
39.998116224668
  11
251.900464898672
  21
27
  31
39.998116224668
  0
LINE
  8
0
  6
DASHED
  10
222.150464898672
  20
22
  30
24.991971224668
  11
222.150464898672
  21
20
  31
24.991971224668
  0
LINE
  8
0
  6
DASHED
  10
222.150464898672
  20
20
  30
24.991971224668
  11
219.150464898672
  21
20
  31
24.991971224668
  0
LINE
  8
0
  6
DASHED
  10
219.150464898672
  20
20
  30
24.991971224668
  11
219.150464898672
  21
22
  31
24.991971224668
  0
LINE
  8
0
  6
DASHED
  10
219.150464898672
  20
22
  30
24.991971224668
  11
222.150464898672
  21
22
  31
24.991971224668
  0
LINE
  8
0
  6
DASHED
  10
222.150464898672
  20
22
  30
55.504261224668
  11
222.150464898672
  21
20
  31
55.504261224668
  0
LINE
  8
0
  6
DASHED
  10
222.150464898672
  20
20
  30
55.504261224668
  11
219.150464898672
  21
20
  31
55.504261224668
  0
LINE
  8
0
  6
DASHED
  10
219.150464898672
  20
20
  30
55.504261224668
  11
219.150464898672
  21
22
  31
55.504261224668
  0
LINE
  8
0
  6
DASHED
  10
219.150464898672
  20
22
  30
55.504261224668
  11
222.150464898672
  21
22
  31
55.504261224668
  0
LINE
  8
0
  6
DASHED
  10
226.410464898672
  20
27
  30
62.498116224668
  11
226.410464898672
  21
20
  31
62.498116224668
  0
LINE
  8
0
  6
DASHED
  10
226.410464898672
  20
20
  30
62.498116224668
  11
223.910464898672
  21
20
  31
62.498116224668
  0
LINE
  8
0
  6
DASHED
  10
223.910464898672
  20
20
  30
62.498116224668
  11
223.910464898672
  21
27
  31
62.498116224668
  0
LINE
  8
0
  6
DASHED
  10
223.910464898672
  20
27
  30
62.498116224668
  11
226.410464898672
  21
27
  31
62.498116224668
  0
LINE
  8
0
  6
DASHED
  10
226.410464898672
  20
27
  30
17.498116224668
  11
226.410464898672
  21
20
  31
17.498116224668
  0
LINE
  8
0
  6
DASHED
  10
226.410464898672
  20
20
  30
17.498116224668
  11
223.910464898672
  21
20
  31
17.498116224668
  0
LINE
  8
0
  6
DASHED
  10
223.910464898672
  20
20
  30
17.498116224668
  11
223.910464898672
  21
27
  31
17.498116224668
  0
LINE
  8
0
  6
DASHED
  10
223.910464898672
  20
27
  30
17.498116224668
  11
226.410464898672
  21
27
  31
17.498116224668
  0
LINE
  8
0
  6
DASHED
  10
203.242464898672
  20
25
  30
7.248116224668
  11
203.242464898672
  21
20
  31
7.248116224668
  0
LINE
  8
0
  6
DASHED
  10
203.242464898672
  20
20
  30
7.248116224668
  11
200.242464898672
  21
20
  31
7.248116224668
  0
LINE
  8
0
  6
DASHED
  10
200.242464898672
  20
20
  30
7.248116224668
  11
200.242464898672
  21
25
  31
7.248116224668
  0
LINE
  8
0
  6
DASHED
  10
200.242464898672
  20
25
  30
7.248116224668
  11
203.242464898672
  21
25
  31
7.248116224668
  0
LINE
  8
0
  6
DASHED
  10
203.242464898672
  20
25
  30
73.248116224668
  11
203.242464898672
  21
20
  31
73.248116224668
  0
LINE
  8
0
  6
DASHED
  10
203.242464898672
  20
20
  30
73.248116224668
  11
200.242464898672
  21
20
  31
73.248116224668
  0
LINE
  8
0
  6
DASHED
  10
200.242464898672
  20
20
  30
73.248116224668
  11
200.242464898672
  21
25
  31
73.248116224668
  0
LINE
  8
0
  6
DASHED
  10
200.242464898672
  20
25
  30
73.248116224668
  11
203.242464898672
  21
25
  31
73.248116224668
  0
LINE
  8
0
  6
DASHED
  10
223.400464898672
  20
25
  30
56.754261224668
  11
223.400464898672
  21
22
  31
56.754261224668
  0
LINE
  8
0
  6
DASHED
  10
223.400464898672
  20
22
  30
56.754261224668
  11
217.900464898672
  21
22
  31
56.754261224668
  0
LINE
  8
0
  6
DASHED
  10
217.900464898672
  20
22
  30
56.754261224668
  11
217.900464898672
  21
25
  31
56.754261224668
  0
LINE
  8
0
  6
DASHED
  10
217.900464898672
  20
25
  30
56.754261224668
  11
223.400464898672
  21
25
  31
56.754261224668
  0
LINE
  8
0
  6
DASHED
  10
223.400464898672
  20
25
  30
26.241971224668
  11
223.400464898672
  21
22
  31
26.241971224668
  0
LINE
  8
0
  6
DASHED
  10
223.400464898672
  20
22
  30
26.241971224668
  11
217.900464898672
  21
22
  31
26.241971224668
  0
LINE
  8
0
  6
DASHED
  10
217.900464898672
  20
22
  30
26.241971224668
  11
217.900464898672
  21
25
  31
26.241971224668
  0
LINE
  8
0
  6
DASHED
  10
217.900464898672
  20
25
  30
26.241971224668
  11
223.400464898672
  21
25
  31
26.241971224668
  0
LINE
  8
0
  6
DASHED
  10
211.629189943348
  20
25
  30
48.748116224668
  11
211.629189943348
  21
20
  31
48.748116224668
  0
LINE
  8
0
  6
DASHED
  10
211.629189943348
  20
20
  30
48.748116224668
  11
204.617919738217
  21
20
  31
48.748116224668
  0
LINE
  8
0
  6
DASHED
  10
204.617919738217
  20
20
  30
48.748116224668
  11
204.617919738217
  21
25
  31
48.748116224668
  0
LINE
  8
0
  6
DASHED
  10
204.617919738217
  20
25
  30
48.748116224668
  11
211.629189943348
  21
25
  31
48.748116224668
  0
LINE
  8
0
  6
DASHED
  10
244.650464898672
  20
25
  30
47.748116224668
  11
244.650464898672
  21
20
  31
47.748116224668
  0
LINE
  8
0
  6
DASHED
  10
244.650464898672
  20
20
  30
47.748116224668
  11
241.650464898672
  21
20
  31
47.748116224668
  0
LINE
  8
0
  6
DASHED
  10
241.650464898672
  20
20
  30
47.748116224668
  11
241.650464898672
  21
25
  31
47.748116224668
  0
LINE
  8
0
  6
DASHED
  10
241.650464898672
  20
25
  30
47.748116224668
  11
244.650464898672
  21
25
  31
47.748116224668
  0
LINE
  8
0
  6
DASHED
  10
238.901135619388
  20
25
  30
46.48798768476
  11
238.901135619388
  21
20
  31
46.48798768476
  0
LINE
  8
0
  6
DASHED
  10
238.901135619388
  20
20
  30
46.48798768476
  11
214.228674870485
  21
20
  31
46.48798768476
  0
LINE
  8
0
  6
DASHED
  10
214.228674870485
  20
20
  30
46.48798768476
  11
214.228674870485
  21
25
  31
46.48798768476
  0
LINE
  8
0
  6
DASHED
  10
214.228674870485
  20
25
  30
46.48798768476
  11
238.901135619388
  21
25
  31
46.48798768476
  0
LINE
  8
0
  6
DASHED
  10
193.742464898672
  20
25
  30
74.748116224667
  11
193.742464898672
  21
20
  31
74.748116224667
  0
LINE
  8
0
  6
DASHED
  10
193.742464898672
  20
20
  30
74.748116224667
  11
187.742464898672
  21
20
  31
74.748116224667
  0
LINE
  8
0
  6
DASHED
  10
187.742464898672
  20
20
  30
74.748116224667
  11
187.742464898672
  21
25
  31
74.748116224667
  0
LINE
  8
0
  6
DASHED
  10
187.742464898672
  20
25
  30
74.748116224667
  11
193.742464898672
  21
25
  31
74.748116224667
  0
LINE
  8
0
  6
DASHED
  10
193.742464898672
  20
25
  30
8.748116224668
  11
193.742464898672
  21
20
  31
8.748116224668
  0
LINE
  8
0
  6
DASHED
  10
193.742464898672
  20
20
  30
8.748116224668
  11
187.742464898672
  21
20
  31
8.748116224668
  0
LINE
  8
0
  6
DASHED
  10
187.742464898672
  20
20
  30
8.748116224668
  11
187.742464898672
  21
25
  31
8.748116224668
  0
LINE
  8
0
  6
DASHED
  10
187.742464898672
  20
25
  30
8.748116224668
  11
193.742464898672
  21
25
  31
8.748116224668
  0
LINE
  8
0
  10
254.150464898672
  20
27
  30
50.748116224668
  11
254.150464898672
  21
25
  31
50.748116224668
  0
LINE
  8
0
  10
254.150464898672
  20
25
  30
50.748116224668
  11
247.150464898672
  21
25
  31
50.748116224668
  0
LINE
  8
0
  10
247.150464898672
  20
25
  30
50.748116224668
  11
247.150464898672
  21
27
  31
50.748116224668
  0
LINE
  8
0
  10
247.150464898672
  20
27
  30
50.748116224668
  11
254.150464898672
  21
27
  31
50.748116224668
  0
LINE
  8
0
  10
227.660464898672
  20
27
  30
18.749745025457
  11
227.660464898672
  21
25
  31
18.749745025457
  0
LINE
  8
0
  10
227.660464898672
  20
25
  30
18.749745025457
  11
222.660464898672
  21
25
  31
18.749745025457
  0
LINE
  8
0
  10
222.660464898672
  20
25
  30
18.749745025457
  11
222.660464898672
  21
27
  31
18.749745025457
  0
LINE
  8
0
  10
222.660464898672
  20
27
  30
18.749745025457
  11
227.660464898672
  21
27
  31
18.749745025457
  0
LINE
  8
0
  10
227.660464898672
  20
27
  30
63.748116224668
  11
227.660464898672
  21
25
  31
63.748116224668
  0
LINE
  8
0
  10
227.660464898672
  20
25
  30
63.748116224668
  11
222.660464898672
  21
25
  31
63.748116224668
  0
LINE
  8
0
  10
222.660464898672
  20
25
  30
63.748116224668
  11
222.660464898672
  21
27
  31
63.748116224668
  0
LINE
  8
0
  10
222.660464898672
  20
27
  30
63.748116224668
  11
227.660464898672
  21
27
  31
63.748116224668
  0
LINE
  8
0
  6
DASHED
  10
203.242464898672
  20
25
  30
69.248116224668
  11
203.242464898672
  21
20
  31
69.248116224668
  0
LINE
  8
0
  6
DASHED
  10
203.242464898672
  20
20
  30
69.248116224668
  11
200.242464898672
  21
20
  31
69.248116224668
  0
LINE
  8
0
  6
DASHED
  10
200.242464898672
  20
20
  30
69.248116224668
  11
200.242464898672
  21
25
  31
69.248116224668
  0
LINE
  8
0
  6
DASHED
  10
200.242464898672
  20
25
  30
69.248116224668
  11
203.242464898672
  21
25
  31
69.248116224668
  0
LINE
  8
0
  6
DASHED
  10
203.242464898672
  20
25
  30
65.248116224668
  11
203.242464898672
  21
20
  31
65.248116224668
  0
LINE
  8
0
  6
DASHED
  10
203.242464898672
  20
20
  30
65.248116224668
  11
200.242464898672
  21
20
  31
65.248116224668
  0
LINE
  8
0
  6
DASHED
  10
200.242464898672
  20
20
  30
65.248116224668
  11
200.242464898672
  21
25
  31
65.248116224668
  0
LINE
  8
0
  6
DASHED
  10
200.242464898672
  20
25
  30
65.248116224668
  11
203.242464898672
  21
25
  31
65.248116224668
  0
LINE
  8
0
  6
DASHED
  10
203.242464898672
  20
25
  30
11.248116224668
  11
203.242464898672
  21
20
  31
11.248116224668
  0
LINE
  8
0
  6
DASHED
  10
203.242464898672
  20
20
  30
11.248116224668
  11
200.242464898672
  21
20
  31
11.248116224668
  0
LINE
  8
0
  6
DASHED
  10
200.242464898672
  20
20
  30
11.248116224668
  11
200.242464898672
  21
25
  31
11.248116224668
  0
LINE
  8
0
  6
DASHED
  10
200.242464898672
  20
25
  30
11.248116224668
  11
203.242464898672
  21
25
  31
11.248116224668
  0
LINE
  8
0
  6
DASHED
  10
203.242464898672
  20
25
  30
15.248116224668
  11
203.242464898672
  21
20
  31
15.248116224668
  0
LINE
  8
0
  6
DASHED
  10
203.242464898672
  20
20
  30
15.248116224668
  11
200.242464898672
  21
20
  31
15.248116224668
  0
LINE
  8
0
  6
DASHED
  10
200.242464898672
  20
20
  30
15.248116224668
  11
200.242464898672
  21
25
  31
15.248116224668
  0
LINE
  8
0
  6
DASHED
  10
200.242464898672
  20
25
  30
15.248116224668
  11
203.242464898672
  21
25
  31
15.248116224668
  0
TEXT
  8
0
  40
2.54
  72
0
  10
216.071464898672
  20
10
  30
0
  1
Left
  50
0
  0
LINE
  8
0
  10
259.150464898672
  20
25
  30
77.496232449336
  11
259.150464898672
  21
20
  31
77.496232449336
  0
LINE
  8
0
  10
259.150464898672
  20
20
  30
77.496232449336
  11
328.308464898672
  21
20
  31
77.496232449336
  0
LINE
  8
0
  10
328.308464898672
  20
20
  30
77.496232449336
  11
328.308464898672
  21
25
  31
77.496232449336
  0
LINE
  8
0
  10
328.308464898672
  20
25
  30
77.496232449336
  11
259.150464898672
  21
25
  31
77.496232449336
  0
LINE
  8
0
  6
DASHED
  10
261.400464898672
  20
27
  30
39.998116224668
  11
261.400464898672
  21
20
  31
39.998116224668
  0
LINE
  8
0
  6
DASHED
  10
261.400464898672
  20
20
  30
39.998116224668
  11
263.900464898672
  21
20
  31
39.998116224668
  0
LINE
  8
0
  6
DASHED
  10
263.900464898672
  20
20
  30
39.998116224668
  11
263.900464898672
  21
27
  31
39.998116224668
  0
LINE
  8
0
  6
DASHED
  10
263.900464898672
  20
27
  30
39.998116224668
  11
261.400464898672
  21
27
  31
39.998116224668
  0
LINE
  8
0
  6
DASHED
  10
291.150464898672
  20
22
  30
55.504261224668
  11
291.150464898672
  21
20
  31
55.504261224668
  0
LINE
  8
0
  6
DASHED
  10
291.150464898672
  20
20
  30
55.504261224668
  11
294.150464898672
  21
20
  31
55.504261224668
  0
LINE
  8
0
  6
DASHED
  10
294.150464898672
  20
20
  30
55.504261224668
  11
294.150464898672
  21
22
  31
55.504261224668
  0
LINE
  8
0
  6
DASHED
  10
294.150464898672
  20
22
  30
55.504261224668
  11
291.150464898672
  21
22
  31
55.504261224668
  0
LINE
  8
0
  6
DASHED
  10
291.150464898672
  20
22
  30
24.991971224668
  11
291.150464898672
  21
20
  31
24.991971224668
  0
LINE
  8
0
  6
DASHED
  10
291.150464898672
  20
20
  30
24.991971224668
  11
294.150464898672
  21
20
  31
24.991971224668
  0
LINE
  8
0
  6
DASHED
  10
294.150464898672
  20
20
  30
24.991971224668
  11
294.150464898672
  21
22
  31
24.991971224668
  0
LINE
  8
0
  6
DASHED
  10
294.150464898672
  20
22
  30
24.991971224668
  11
291.150464898672
  21
22
  31
24.991971224668
  0
LINE
  8
0
  6
DASHED
  10
286.890464898672
  20
27
  30
17.498116224668
  11
286.890464898672
  21
20
  31
17.498116224668
  0
LINE
  8
0
  6
DASHED
  10
286.890464898672
  20
20
  30
17.498116224668
  11
289.390464898672
  21
20
  31
17.498116224668
  0
LINE
  8
0
  6
DASHED
  10
289.390464898672
  20
20
  30
17.498116224668
  11
289.390464898672
  21
27
  31
17.498116224668
  0
LINE
  8
0
  6
DASHED
  10
289.390464898672
  20
27
  30
17.498116224668
  11
286.890464898672
  21
27
  31
17.498116224668
  0
LINE
  8
0
  6
DASHED
  10
286.890464898672
  20
27
  30
62.498116224668
  11
286.890464898672
  21
20
  31
62.498116224668
  0
LINE
  8
0
  6
DASHED
  10
286.890464898672
  20
20
  30
62.498116224668
  11
289.390464898672
  21
20
  31
62.498116224668
  0
LINE
  8
0
  6
DASHED
  10
289.390464898672
  20
20
  30
62.498116224668
  11
289.390464898672
  21
27
  31
62.498116224668
  0
LINE
  8
0
  6
DASHED
  10
289.390464898672
  20
27
  30
62.498116224668
  11
286.890464898672
  21
27
  31
62.498116224668
  0
LINE
  8
0
  6
DASHED
  10
310.058464898672
  20
25
  30
73.248116224668
  11
310.058464898672
  21
20
  31
73.248116224668
  0
LINE
  8
0
  6
DASHED
  10
310.058464898672
  20
20
  30
73.248116224668
  11
313.058464898672
  21
20
  31
73.248116224668
  0
LINE
  8
0
  6
DASHED
  10
313.058464898672
  20
20
  30
73.248116224668
  11
313.058464898672
  21
25
  31
73.248116224668
  0
LINE
  8
0
  6
DASHED
  10
313.058464898672
  20
25
  30
73.248116224668
  11
310.058464898672
  21
25
  31
73.248116224668
  0
LINE
  8
0
  6
DASHED
  10
310.058464898672
  20
25
  30
7.248116224668
  11
310.058464898672
  21
20
  31
7.248116224668
  0
LINE
  8
0
  6
DASHED
  10
310.058464898672
  20
20
  30
7.248116224668
  11
313.058464898672
  21
20
  31
7.248116224668
  0
LINE
  8
0
  6
DASHED
  10
313.058464898672
  20
20
  30
7.248116224668
  11
313.058464898672
  21
25
  31
7.248116224668
  0
LINE
  8
0
  6
DASHED
  10
313.058464898672
  20
25
  30
7.248116224668
  11
310.058464898672
  21
25
  31
7.248116224668
  0
LINE
  8
0
  6
DASHED
  10
289.900464898672
  20
25
  30
26.241971224668
  11
289.900464898672
  21
22
  31
26.241971224668
  0
LINE
  8
0
  6
DASHED
  10
289.900464898672
  20
22
  30
26.241971224668
  11
295.400464898672
  21
22
  31
26.241971224668
  0
LINE
  8
0
  6
DASHED
  10
295.400464898672
  20
22
  30
26.241971224668
  11
295.400464898672
  21
25
  31
26.241971224668
  0
LINE
  8
0
  6
DASHED
  10
295.400464898672
  20
25
  30
26.241971224668
  11
289.900464898672
  21
25
  31
26.241971224668
  0
LINE
  8
0
  6
DASHED
  10
289.900464898672
  20
25
  30
56.754261224668
  11
289.900464898672
  21
22
  31
56.754261224668
  0
LINE
  8
0
  6
DASHED
  10
289.900464898672
  20
22
  30
56.754261224668
  11
295.400464898672
  21
22
  31
56.754261224668
  0
LINE
  8
0
  6
DASHED
  10
295.400464898672
  20
22
  30
56.754261224668
  11
295.400464898672
  21
25
  31
56.754261224668
  0
LINE
  8
0
  6
DASHED
  10
295.400464898672
  20
25
  30
56.754261224668
  11
289.900464898672
  21
25
  31
56.754261224668
  0
LINE
  8
0
  6
DASHED
  10
301.671739853996
  20
25
  30
48.748116224668
  11
301.671739853996
  21
20
  31
48.748116224668
  0
LINE
  8
0
  6
DASHED
  10
301.671739853996
  20
20
  30
48.748116224668
  11
308.683010059127
  21
20
  31
48.748116224668
  0
LINE
  8
0
  6
DASHED
  10
308.683010059127
  20
20
  30
48.748116224668
  11
308.683010059127
  21
25
  31
48.748116224668
  0
LINE
  8
0
  6
DASHED
  10
308.683010059127
  20
25
  30
48.748116224668
  11
301.671739853996
  21
25
  31
48.748116224668
  0
LINE
  8
0
  6
DASHED
  10
268.650464898672
  20
25
  30
47.748116224668
  11
268.650464898672
  21
20
  31
47.748116224668
  0
LINE
  8
0
  6
DASHED
  10
268.650464898672
  20
20
  30
47.748116224668
  11
271.650464898672
  21
20
  31
47.748116224668
  0
LINE
  8
0
  6
DASHED
  10
271.650464898672
  20
20
  30
47.748116224668
  11
271.650464898672
  21
25
  31
47.748116224668
  0
LINE
  8
0
  6
DASHED
  10
271.650464898672
  20
25
  30
47.748116224668
  11
268.650464898672
  21
25
  31
47.748116224668
  0
LINE
  8
0
  6
DASHED
  10
274.399794177956
  20
25
  30
46.48798768476
  11
274.399794177956
  21
20
  31
46.48798768476
  0
LINE
  8
0
  6
DASHED
  10
274.399794177956
  20
20
  30
46.48798768476
  11
299.072254926859
  21
20
  31
46.48798768476
  0
LINE
  8
0
  6
DASHED
  10
299.072254926859
  20
20
  30
46.48798768476
  11
299.072254926859
  21
25
  31
46.48798768476
  0
LINE
  8
0
  6
DASHED
  10
299.072254926859
  20
25
  30
46.48798768476
  11
274.399794177956
  21
25
  31
46.48798768476
  0
LINE
  8
0
  6
DASHED
  10
319.558464898672
  20
25
  30
8.748116224669
  11
319.558464898672
  21
20
  31
8.748116224669
  0
LINE
  8
0
  6
DASHED
  10
319.558464898672
  20
20
  30
8.748116224669
  11
325.558464898672
  21
20
  31
8.748116224669
  0
LINE
  8
0
  6
DASHED
  10
325.558464898672
  20
20
  30
8.748116224669
  11
325.558464898672
  21
25
  31
8.748116224669
  0
LINE
  8
0
  6
DASHED
  10
325.558464898672
  20
25
  30
8.748116224669
  11
319.558464898672
  21
25
  31
8.748116224669
  0
LINE
  8
0
  6
DASHED
  10
319.558464898672
  20
25
  30
74.748116224668
  11
319.558464898672
  21
20
  31
74.748116224668
  0
LINE
  8
0
  6
DASHED
  10
319.558464898672
  20
20
  30
74.748116224668
  11
325.558464898672
  21
20
  31
74.748116224668
  0
LINE
  8
0
  6
DASHED
  10
325.558464898672
  20
20
  30
74.748116224668
  11
325.558464898672
  21
25
  31
74.748116224668
  0
LINE
  8
0
  6
DASHED
  10
325.558464898672
  20
25
  30
74.748116224668
  11
319.558464898672
  21
25
  31
74.748116224668
  0
LINE
  8
0
  10
259.150464898672
  20
27
  30
50.748116224668
  11
259.150464898672
  21
25
  31
50.748116224668
  0
LINE
  8
0
  10
259.150464898672
  20
25
  30
50.748116224668
  11
266.150464898672
  21
25
  31
50.748116224668
  0
LINE
  8
0
  10
266.150464898672
  20
25
  30
50.748116224668
  11
266.150464898672
  21
27
  31
50.748116224668
  0
LINE
  8
0
  10
266.150464898672
  20
27
  30
50.748116224668
  11
259.150464898672
  21
27
  31
50.748116224668
  0
LINE
  8
0
  10
285.640464898672
  20
27
  30
63.748116224668
  11
285.640464898672
  21
25
  31
63.748116224668
  0
LINE
  8
0
  10
285.640464898672
  20
25
  30
63.748116224668
  11
290.640464898672
  21
25
  31
63.748116224668
  0
LINE
  8
0
  10
290.640464898672
  20
25
  30
63.748116224668
  11
290.640464898672
  21
27
  31
63.748116224668
  0
LINE
  8
0
  10
290.640464898672
  20
27
  30
63.748116224668
  11
285.640464898672
  21
27
  31
63.748116224668
  0
LINE
  8
0
  10
285.640464898672
  20
27
  30
18.748116224668
  11
285.640464898672
  21
25
  31
18.748116224668
  0
LINE
  8
0
  10
285.640464898672
  20
25
  30
18.748116224668
  11
290.640464898672
  21
25
  31
18.748116224668
  0
LINE
  8
0
  10
290.640464898672
  20
25
  30
18.748116224668
  11
290.640464898672
  21
27
  31
18.748116224668
  0
LINE
  8
0
  10
290.640464898672
  20
27
  30
18.748116224668
  11
285.640464898672
  21
27
  31
18.748116224668
  0
LINE
  8
0
  6
DASHED
  10
310.058464898672
  20
25
  30
11.248116224668
  11
310.058464898672
  21
20
  31
11.248116224668
  0
LINE
  8
0
  6
DASHED
  10
310.058464898672
  20
20
  30
11.248116224668
  11
313.058464898672
  21
20
  31
11.248116224668
  0
LINE
  8
0
  6
DASHED
  10
313.058464898672
  20
20
  30
11.248116224668
  11
313.058464898672
  21
25
  31
11.248116224668
  0
LINE
  8
0
  6
DASHED
  10
313.058464898672
  20
25
  30
11.248116224668
  11
310.058464898672
  21
25
  31
11.248116224668
  0
LINE
  8
0
  6
DASHED
  10
310.058464898672
  20
25
  30
15.248116224668
  11
310.058464898672
  21
20
  31
15.248116224668
  0
LINE
  8
0
  6
DASHED
  10
310.058464898672
  20
20
  30
15.248116224668
  11
313.058464898672
  21
20
  31
15.248116224668
  0
LINE
  8
0
  6
DASHED
  10
313.058464898672
  20
20
  30
15.248116224668
  11
313.058464898672
  21
25
  31
15.248116224668
  0
LINE
  8
0
  6
DASHED
  10
313.058464898672
  20
25
  30
15.248116224668
  11
310.058464898672
  21
25
  31
15.248116224668
  0
LINE
  8
0
  6
DASHED
  10
310.058464898672
  20
25
  30
69.248116224668
  11
310.058464898672
  21
20
  31
69.248116224668
  0
LINE
  8
0
  6
DASHED
  10
310.058464898672
  20
20
  30
69.248116224668
  11
313.058464898672
  21
20
  31
69.248116224668
  0
LINE
  8
0
  6
DASHED
  10
313.058464898672
  20
20
  30
69.248116224668
  11
313.058464898672
  21
25
  31
69.248116224668
  0
LINE
  8
0
  6
DASHED
  10
313.058464898672
  20
25
  30
69.248116224668
  11
310.058464898672
  21
25
  31
69.248116224668
  0
LINE
  8
0
  6
DASHED
  10
310.058464898672
  20
25
  30
65.248116224668
  11
310.058464898672
  21
20
  31
65.248116224668
  0
LINE
  8
0
  6
DASHED
  10
310.058464898672
  20
20
  30
65.248116224668
  11
313.058464898672
  21
20
  31
65.248116224668
  0
LINE
  8
0
  6
DASHED
  10
313.058464898672
  20
20
  30
65.248116224668
  11
313.058464898672
  21
25
  31
65.248116224668
  0
LINE
  8
0
  6
DASHED
  10
313.058464898672
  20
25
  30
65.248116224668
  11
310.058464898672
  21
25
  31
65.248116224668
  0
TEXT
  8
0
  40
2.54
  72
0
  10
290.229464898672
  20
10
  30
0
  1
Right
  50
0
  0
LINE
  8
0
  10
333.308464898672
  20
25
  30
69.158
  11
333.308464898672
  21
20
  31
69.158
  0
LINE
  8
0
  10
333.308464898672
  20
20
  30
69.158
  11
410.804697348008
  21
20
  31
69.158
  0
LINE
  8
0
  10
410.804697348008
  20
20
  30
69.158
  11
410.804697348008
  21
25
  31
69.158
  0
LINE
  8
0
  10
410.804697348008
  20
25
  30
69.158
  11
333.308464898672
  21
25
  31
69.158
  0
LINE
  8
0
  6
DASHED
  10
370.80658112334
  20
27
  30
66.908
  11
370.80658112334
  21
20
  31
66.908
  0
LINE
  8
0
  6
DASHED
  10
370.80658112334
  20
20
  30
66.908
  11
373.30658112334
  21
20
  31
66.908
  0
LINE
  8
0
  6
DASHED
  10
373.30658112334
  20
20
  30
66.908
  11
373.30658112334
  21
27
  31
66.908
  0
LINE
  8
0
  6
DASHED
  10
373.30658112334
  20
27
  30
66.908
  11
370.80658112334
  21
27
  31
66.908
  0
LINE
  8
0
  6
DASHED
  10
385.81272612334
  20
22
  30
37.158
  11
385.81272612334
  21
20
  31
37.158
  0
LINE
  8
0
  6
DASHED
  10
385.81272612334
  20
20
  30
37.158
  11
388.81272612334
  21
20
  31
37.158
  0
LINE
  8
0
  6
DASHED
  10
388.81272612334
  20
20
  30
37.158
  11
388.81272612334
  21
22
  31
37.158
  0
LINE
  8
0
  6
DASHED
  10
388.81272612334
  20
22
  30
37.158
  11
385.81272612334
  21
22
  31
37.158
  0
LINE
  8
0
  6
DASHED
  10
355.30043612334
  20
22
  30
37.158
  11
355.30043612334
  21
20
  31
37.158
  0
LINE
  8
0
  6
DASHED
  10
355.30043612334
  20
20
  30
37.158
  11
358.30043612334
  21
20
  31
37.158
  0
LINE
  8
0
  6
DASHED
  10
358.30043612334
  20
20
  30
37.158
  11
358.30043612334
  21
22
  31
37.158
  0
LINE
  8
0
  6
DASHED
  10
358.30043612334
  20
22
  30
37.158
  11
355.30043612334
  21
22
  31
37.158
  0
LINE
  8
0
  6
DASHED
  10
348.30658112334
  20
27
  30
41.418
  11
348.30658112334
  21
20
  31
41.418
  0
LINE
  8
0
  6
DASHED
  10
348.30658112334
  20
20
  30
41.418
  11
350.80658112334
  21
20
  31
41.418
  0
LINE
  8
0
  6
DASHED
  10
350.80658112334
  20
20
  30
41.418
  11
350.80658112334
  21
27
  31
41.418
  0
LINE
  8
0
  6
DASHED
  10
350.80658112334
  20
27
  30
41.418
  11
348.30658112334
  21
27
  31
41.418
  0
LINE
  8
0
  6
DASHED
  10
393.30658112334
  20
27
  30
41.418
  11
393.30658112334
  21
20
  31
41.418
  0
LINE
  8
0
  6
DASHED
  10
393.30658112334
  20
20
  30
41.418
  11
395.80658112334
  21
20
  31
41.418
  0
LINE
  8
0
  6
DASHED
  10
395.80658112334
  20
20
  30
41.418
  11
395.80658112334
  21
27
  31
41.418
  0
LINE
  8
0
  6
DASHED
  10
395.80658112334
  20
27
  30
41.418
  11
393.30658112334
  21
27
  31
41.418
  0
LINE
  8
0
  6
DASHED
  10
403.55658112334
  20
25
  30
18.25
  11
403.55658112334
  21
20
  31
18.25
  0
LINE
  8
0
  6
DASHED
  10
403.55658112334
  20
20
  30
18.25
  11
406.55658112334
  21
20
  31
18.25
  0
LINE
  8
0
  6
DASHED
  10
406.55658112334
  20
20
  30
18.25
  11
406.55658112334
  21
25
  31
18.25
  0
LINE
  8
0
  6
DASHED
  10
406.55658112334
  20
25
  30
18.25
  11
403.55658112334
  21
25
  31
18.25
  0
LINE
  8
0
  6
DASHED
  10
337.55658112334
  20
25
  30
18.25
  11
337.55658112334
  21
20
  31
18.25
  0
LINE
  8
0
  6
DASHED
  10
337.55658112334
  20
20
  30
18.25
  11
340.55658112334
  21
20
  31
18.25
  0
LINE
  8
0
  6
DASHED
  10
340.55658112334
  20
20
  30
18.25
  11
340.55658112334
  21
25
  31
18.25
  0
LINE
  8
0
  6
DASHED
  10
340.55658112334
  20
25
  30
18.25
  11
337.55658112334
  21
25
  31
18.25
  0
LINE
  8
0
  6
DASHED
  10
354.05043612334
  20
25
  30
38.408
  11
354.05043612334
  21
22
  31
38.408
  0
LINE
  8
0
  6
DASHED
  10
354.05043612334
  20
22
  30
38.408
  11
359.55043612334
  21
22
  31
38.408
  0
LINE
  8
0
  6
DASHED
  10
359.55043612334
  20
22
  30
38.408
  11
359.55043612334
  21
25
  31
38.408
  0
LINE
  8
0
  6
DASHED
  10
359.55043612334
  20
25
  30
38.408
  11
354.05043612334
  21
25
  31
38.408
  0
LINE
  8
0
  6
DASHED
  10
384.56272612334
  20
25
  30
38.408
  11
384.56272612334
  21
22
  31
38.408
  0
LINE
  8
0
  6
DASHED
  10
384.56272612334
  20
22
  30
38.408
  11
390.06272612334
  21
22
  31
38.408
  0
LINE
  8
0
  6
DASHED
  10
390.06272612334
  20
22
  30
38.408
  11
390.06272612334
  21
25
  31
38.408
  0
LINE
  8
0
  6
DASHED
  10
390.06272612334
  20
25
  30
38.408
  11
384.56272612334
  21
25
  31
38.408
  0
LINE
  8
0
  6
DASHED
  10
362.05658112334
  20
25
  30
26.636725044676
  11
362.05658112334
  21
20
  31
26.636725044676
  0
LINE
  8
0
  6
DASHED
  10
362.05658112334
  20
20
  30
26.636725044676
  11
382.05658112334
  21
20
  31
26.636725044676
  0
LINE
  8
0
  6
DASHED
  10
382.05658112334
  20
20
  30
26.636725044676
  11
382.05658112334
  21
25
  31
26.636725044676
  0
LINE
  8
0
  6
DASHED
  10
382.05658112334
  20
25
  30
26.636725044676
  11
362.05658112334
  21
25
  31
26.636725044676
  0
LINE
  8
0
  6
DASHED
  10
363.05658112334
  20
25
  30
59.658
  11
363.05658112334
  21
20
  31
59.658
  0
LINE
  8
0
  6
DASHED
  10
363.05658112334
  20
20
  30
59.658
  11
381.05658112334
  21
20
  31
59.658
  0
LINE
  8
0
  6
DASHED
  10
381.05658112334
  20
20
  30
59.658
  11
381.05658112334
  21
25
  31
59.658
  0
LINE
  8
0
  6
DASHED
  10
381.05658112334
  20
25
  30
59.658
  11
363.05658112334
  21
25
  31
59.658
  0
LINE
  8
0
  6
DASHED
  10
364.316709663248
  20
25
  30
53.908670720716
  11
364.316709663248
  21
20
  31
53.908670720716
  0
LINE
  8
0
  6
DASHED
  10
364.316709663248
  20
20
  30
53.908670720716
  11
379.796452583432
  21
20
  31
53.908670720716
  0
LINE
  8
0
  6
DASHED
  10
379.796452583432
  20
20
  30
53.908670720716
  11
379.796452583432
  21
25
  31
53.908670720716
  0
LINE
  8
0
  6
DASHED
  10
379.796452583432
  20
25
  30
53.908670720716
  11
364.316709663248
  21
25
  31
53.908670720716
  0
LINE
  8
0
  6
DASHED
  10
336.056581123341
  20
25
  30
8.75
  11
336.056581123341
  21
20
  31
8.75
  0
LINE
  8
0
  6
DASHED
  10
336.056581123341
  20
20
  30
8.75
  11
342.056581123341
  21
20
  31
8.75
  0
LINE
  8
0
  6
DASHED
  10
342.056581123341
  20
20
  30
8.75
  11
342.056581123341
  21
25
  31
8.75
  0
LINE
  8
0
  6
DASHED
  10
342.056581123341
  20
25
  30
8.75
  11
336.056581123341
  21
25
  31
8.75
  0
LINE
  8
0
  6
DASHED
  10
402.05658112334
  20
25
  30
8.75
  11
402.05658112334
  21
20
  31
8.75
  0
LINE
  8
0
  6
DASHED
  10
402.05658112334
  20
20
  30
8.75
  11
408.05658112334
  21
20
  31
8.75
  0
LINE
  8
0
  6
DASHED
  10
408.05658112334
  20
20
  30
8.75
  11
408.05658112334
  21
25
  31
8.75
  0
LINE
  8
0
  6
DASHED
  10
408.05658112334
  20
25
  30
8.75
  11
402.05658112334
  21
25
  31
8.75
  0
LINE
  8
0
  10
360.05658112334
  20
27
  30
69.158
  11
360.05658112334
  21
25
  31
69.158
  0
LINE
  8
0
  10
360.05658112334
  20
25
  30
69.158
  11
384.05658112334
  21
25
  31
69.158
  0
LINE
  8
0
  10
384.05658112334
  20
25
  30
69.158
  11
384.05658112334
  21
27
  31
69.158
  0
LINE
  8
0
  10
384.05658112334
  20
27
  30
69.158
  11
360.05658112334
  21
27
  31
69.158
  0
LINE
  8
0
  10
392.054952322551
  20
27
  30
42.668
  11
392.054952322551
  21
25
  31
42.668
  0
LINE
  8
0
  10
392.054952322551
  20
25
  30
42.668
  11
397.05658112334
  21
25
  31
42.668
  0
LINE
  8
0
  10
397.05658112334
  20
25
  30
42.668
  11
397.05658112334
  21
27
  31
42.668
  0
LINE
  8
0
  10
397.05658112334
  20
27
  30
42.668
  11
392.054952322551
  21
27
  31
42.668
  0
LINE
  8
0
  10
347.05658112334
  20
27
  30
42.668
  11
347.05658112334
  21
25
  31
42.668
  0
LINE
  8
0
  10
347.05658112334
  20
25
  30
42.668
  11
352.05658112334
  21
25
  31
42.668
  0
LINE
  8
0
  10
352.05658112334
  20
25
  30
42.668
  11
352.05658112334
  21
27
  31
42.668
  0
LINE
  8
0
  10
352.05658112334
  20
27
  30
42.668
  11
347.05658112334
  21
27
  31
42.668
  0
LINE
  8
0
  6
DASHED
  10
341.55658112334
  20
25
  30
18.25
  11
341.55658112334
  21
20
  31
18.25
  0
LINE
  8
0
  6
DASHED
  10
341.55658112334
  20
20
  30
18.25
  11
344.55658112334
  21
20
  31
18.25
  0
LINE
  8
0
  6
DASHED
  10
344.55658112334
  20
20
  30
18.25
  11
344.55658112334
  21
25
  31
18.25
  0
LINE
  8
0
  6
DASHED
  10
344.55658112334
  20
25
  30
18.25
  11
341.55658112334
  21
25
  31
18.25
  0
LINE
  8
0
  6
DASHED
  10
345.55658112334
  20
25
  30
18.25
  11
345.55658112334
  21
20
  31
18.25
  0
LINE
  8
0
  6
DASHED
  10
345.55658112334
  20
20
  30
18.25
  11
348.55658112334
  21
20
  31
18.25
  0
LINE
  8
0
  6
DASHED
  10
348.55658112334
  20
20
  30
18.25
  11
348.55658112334
  21
25
  31
18.25
  0
LINE
  8
0
  6
DASHED
  10
348.55658112334
  20
25
  30
18.25
  11
345.55658112334
  21
25
  31
18.25
  0
LINE
  8
0
  6
DASHED
  10
399.55658112334
  20
25
  30
18.25
  11
399.55658112334
  21
20
  31
18.25
  0
LINE
  8
0
  6
DASHED
  10
399.55658112334
  20
20
  30
18.25
  11
402.55658112334
  21
20
  31
18.25
  0
LINE
  8
0
  6
DASHED
  10
402.55658112334
  20
20
  30
18.25
  11
402.55658112334
  21
25
  31
18.25
  0
LINE
  8
0
  6
DASHED
  10
402.55658112334
  20
25
  30
18.25
  11
399.55658112334
  21
25
  31
18.25
  0
LINE
  8
0
  6
DASHED
  10
395.55658112334
  20
25
  30
18.25
  11
395.55658112334
  21
20
  31
18.25
  0
LINE
  8
0
  6
DASHED
  10
395.55658112334
  20
20
  30
18.25
  11
398.55658112334
  21
20
  31
18.25
  0
LINE
  8
0
  6
DASHED
  10
398.55658112334
  20
20
  30
18.25
  11
398.55658112334
  21
25
  31
18.25
  0
LINE
  8
0
  6
DASHED
  10
398.55658112334
  20
25
  30
18.25
  11
395.55658112334
  21
25
  31
18.25
  0
TEXT
  8
0
  40
2.54
  72
0
  10
368.55658112334
  20
10
  30
0
  1
Front
  50
0
  0
LINE
  8
0
  10
493.300929797344
  20
25
  30
69.158
  11
493.300929797344
  21
20
  31
69.158
  0
LINE
  8
0
  10
493.300929797344
  20
20
  30
69.158
  11
415.804697348008
  21
20
  31
69.158
  0
LINE
  8
0
  10
415.804697348008
  20
20
  30
69.158
  11
415.804697348008
  21
25
  31
69.158
  0
LINE
  8
0
  10
415.804697348008
  20
25
  30
69.158
  11
493.300929797344
  21
25
  31
69.158
  0
LINE
  8
0
  6
DASHED
  10
455.802813572676
  20
27
  30
4.75
  11
455.802813572676
  21
20
  31
4.75
  0
LINE
  8
0
  6
DASHED
  10
455.802813572676
  20
20
  30
4.75
  11
453.302813572676
  21
20
  31
4.75
  0
LINE
  8
0
  6
DASHED
  10
453.302813572676
  20
20
  30
4.75
  11
453.302813572676
  21
27
  31
4.75
  0
LINE
  8
0
  6
DASHED
  10
453.302813572676
  20
27
  30
4.75
  11
455.802813572676
  21
27
  31
4.75
  0
LINE
  8
0
  6
DASHED
  10
440.796668572676
  20
22
  30
35
  11
440.796668572676
  21
20
  31
35
  0
LINE
  8
0
  6
DASHED
  10
440.796668572676
  20
20
  30
35
  11
437.796668572676
  21
20
  31
35
  0
LINE
  8
0
  6
DASHED
  10
437.796668572676
  20
20
  30
35
  11
437.796668572676
  21
22
  31
35
  0
LINE
  8
0
  6
DASHED
  10
437.796668572676
  20
22
  30
35
  11
440.796668572676
  21
22
  31
35
  0
LINE
  8
0
  6
DASHED
  10
471.308958572676
  20
22
  30
35
  11
471.308958572676
  21
20
  31
35
  0
LINE
  8
0
  6
DASHED
  10
471.308958572676
  20
20
  30
35
  11
468.308958572676
  21
20
  31
35
  0
LINE
  8
0
  6
DASHED
  10
468.308958572676
  20
20
  30
35
  11
468.308958572676
  21
22
  31
35
  0
LINE
  8
0
  6
DASHED
  10
468.308958572676
  20
22
  30
35
  11
471.308958572676
  21
22
  31
35
  0
LINE
  8
0
  6
DASHED
  10
478.302813572676
  20
27
  30
30.24
  11
478.302813572676
  21
20
  31
30.24
  0
LINE
  8
0
  6
DASHED
  10
478.302813572676
  20
20
  30
30.24
  11
475.802813572676
  21
20
  31
30.24
  0
LINE
  8
0
  6
DASHED
  10
475.802813572676
  20
20
  30
30.24
  11
475.802813572676
  21
27
  31
30.24
  0
LINE
  8
0
  6
DASHED
  10
475.802813572676
  20
27
  30
30.24
  11
478.302813572676
  21
27
  31
30.24
  0
LINE
  8
0
  6
DASHED
  10
433.302813572676
  20
27
  30
30.24
  11
433.302813572676
  21
20
  31
30.24
  0
LINE
  8
0
  6
DASHED
  10
433.302813572676
  20
20
  30
30.24
  11
430.802813572676
  21
20
  31
30.24
  0
LINE
  8
0
  6
DASHED
  10
430.802813572676
  20
20
  30
30.24
  11
430.802813572676
  21
27
  31
30.24
  0
LINE
  8
0
  6
DASHED
  10
430.802813572676
  20
27
  30
30.24
  11
433.302813572676
  21
27
  31
30.24
  0
LINE
  8
0
  6
DASHED
  10
423.052813572676
  20
25
  30
53.908
  11
423.052813572676
  21
20
  31
53.908
  0
LINE
  8
0
  6
DASHED
  10
423.052813572676
  20
20
  30
53.908
  11
420.052813572676
  21
20
  31
53.908
  0
LINE
  8
0
  6
DASHED
  10
420.052813572676
  20
20
  30
53.908
  11
420.052813572676
  21
25
  31
53.908
  0
LINE
  8
0
  6
DASHED
  10
420.052813572676
  20
25
  30
53.908
  11
423.052813572676
  21
25
  31
53.908
  0
LINE
  8
0
  6
DASHED
  10
489.052813572676
  20
25
  30
53.908
  11
489.052813572676
  21
20
  31
53.908
  0
LINE
  8
0
  6
DASHED
  10
489.052813572676
  20
20
  30
53.908
  11
486.052813572676
  21
20
  31
53.908
  0
LINE
  8
0
  6
DASHED
  10
486.052813572676
  20
20
  30
53.908
  11
486.052813572676
  21
25
  31
53.908
  0
LINE
  8
0
  6
DASHED
  10
486.052813572676
  20
25
  30
53.908
  11
489.052813572676
  21
25
  31
53.908
  0
LINE
  8
0
  6
DASHED
  10
472.558958572676
  20
25
  30
36.25
  11
472.558958572676
  21
22
  31
36.25
  0
LINE
  8
0
  6
DASHED
  10
472.558958572676
  20
22
  30
36.25
  11
467.058958572676
  21
22
  31
36.25
  0
LINE
  8
0
  6
DASHED
  10
467.058958572676
  20
22
  30
36.25
  11
467.058958572676
  21
25
  31
36.25
  0
LINE
  8
0
  6
DASHED
  10
467.058958572676
  20
25
  30
36.25
  11
472.558958572676
  21
25
  31
36.25
  0
LINE
  8
0
  6
DASHED
  10
442.046668572676
  20
25
  30
36.25
  11
442.046668572676
  21
22
  31
36.25
  0
LINE
  8
0
  6
DASHED
  10
442.046668572676
  20
22
  30
36.25
  11
436.546668572676
  21
22
  31
36.25
  0
LINE
  8
0
  6
DASHED
  10
436.546668572676
  20
22
  30
36.25
  11
436.546668572676
  21
25
  31
36.25
  0
LINE
  8
0
  6
DASHED
  10
436.546668572676
  20
25
  30
36.25
  11
442.046668572676
  21
25
  31
36.25
  0
LINE
  8
0
  6
DASHED
  10
464.552813572676
  20
25
  30
49.532545160455
  11
464.552813572676
  21
20
  31
49.532545160455
  0
LINE
  8
0
  6
DASHED
  10
464.552813572676
  20
20
  30
49.532545160455
  11
444.552813572676
  21
20
  31
49.532545160455
  0
LINE
  8
0
  6
DASHED
  10
444.552813572676
  20
20
  30
49.532545160455
  11
444.552813572676
  21
25
  31
49.532545160455
  0
LINE
  8
0
  6
DASHED
  10
444.552813572676
  20
25
  30
49.532545160455
  11
464.552813572676
  21
25
  31
49.532545160455
  0
LINE
  8
0
  6
DASHED
  10
463.552813572676
  20
25
  30
12.5
  11
463.552813572676
  21
20
  31
12.5
  0
LINE
  8
0
  6
DASHED
  10
463.552813572676
  20
20
  30
12.5
  11
445.552813572676
  21
20
  31
12.5
  0
LINE
  8
0
  6
DASHED
  10
445.552813572676
  20
20
  30
12.5
  11
445.552813572676
  21
25
  31
12.5
  0
LINE
  8
0
  6
DASHED
  10
445.552813572676
  20
25
  30
12.5
  11
463.552813572676
  21
25
  31
12.5
  0
LINE
  8
0
  6
DASHED
  10
462.292685032768
  20
25
  30
39.921790028187
  11
462.292685032768
  21
20
  31
39.921790028187
  0
LINE
  8
0
  6
DASHED
  10
462.292685032768
  20
20
  30
39.921790028187
  11
446.812942112584
  21
20
  31
39.921790028187
  0
LINE
  8
0
  6
DASHED
  10
446.812942112584
  20
20
  30
39.921790028187
  11
446.812942112584
  21
25
  31
39.921790028187
  0
LINE
  8
0
  6
DASHED
  10
446.812942112584
  20
25
  30
39.921790028187
  11
462.292685032768
  21
25
  31
39.921790028187
  0
LINE
  8
0
  6
DASHED
  10
490.552813572675
  20
25
  30
66.408
  11
490.552813572675
  21
20
  31
66.408
  0
LINE
  8
0
  6
DASHED
  10
490.552813572675
  20
20
  30
66.408
  11
484.552813572675
  21
20
  31
66.408
  0
LINE
  8
0
  6
DASHED
  10
484.552813572675
  20
20
  30
66.408
  11
484.552813572675
  21
25
  31
66.408
  0
LINE
  8
0
  6
DASHED
  10
484.552813572675
  20
25
  30
66.408
  11
490.552813572675
  21
25
  31
66.408
  0
LINE
  8
0
  6
DASHED
  10
424.552813572676
  20
25
  30
66.408
  11
424.552813572676
  21
20
  31
66.408
  0
LINE
  8
0
  6
DASHED
  10
424.552813572676
  20
20
  30
66.408
  11
418.552813572676
  21
20
  31
66.408
  0
LINE
  8
0
  6
DASHED
  10
418.552813572676
  20
20
  30
66.408
  11
418.552813572676
  21
25
  31
66.408
  0
LINE
  8
0
  6
DASHED
  10
418.552813572676
  20
25
  30
66.408
  11
424.552813572676
  21
25
  31
66.408
  0
LINE
  8
0
  10
466.552813572676
  20
27
  30
7
  11
466.552813572676
  21
25
  31
7
  0
LINE
  8
0
  10
466.552813572676
  20
25
  30
7
  11
442.552813572676
  21
25
  31
7
  0
LINE
  8
0
  10
442.552813572676
  20
25
  30
7
  11
442.552813572676
  21
27
  31
7
  0
LINE
  8
0
  10
442.552813572676
  20
27
  30
7
  11
466.552813572676
  21
27
  31
7
  0
LINE
  8
0
  10
434.554442373465
  20
27
  30
31.49
  11
434.554442373465
  21
25
  31
31.49
  0
LINE
  8
0
  10
434.554442373465
  20
25
  30
31.49
  11
429.552813572676
  21
25
  31
31.49
  0
LINE
  8
0
  10
429.552813572676
  20
25
  30
31.49
  11
429.552813572676
  21
27
  31
31.49
  0
LINE
  8
0
  10
429.552813572676
  20
27
  30
31.49
  11
434.554442373465
  21
27
  31
31.49
  0
LINE
  8
0
  10
479.552813572676
  20
27
  30
31.49
  11
479.552813572676
  21
25
  31
31.49
  0
LINE
  8
0
  10
479.552813572676
  20
25
  30
31.49
  11
474.552813572676
  21
25
  31
31.49
  0
LINE
  8
0
  10
474.552813572676
  20
25
  30
31.49
  11
474.552813572676
  21
27
  31
31.49
  0
LINE
  8
0
  10
474.552813572676
  20
27
  30
31.49
  11
479.552813572676
  21
27
  31
31.49
  0
LINE
  8
0
  6
DASHED
  10
485.052813572676
  20
25
  30
53.908
  11
485.052813572676
  21
20
  31
53.908
  0
LINE
  8
0
  6
DASHED
  10
485.052813572676
  20
20
  30
53.908
  11
482.052813572676
  21
20
  31
53.908
  0
LINE
  8
0
  6
DASHED
  10
482.052813572676
  20
20
  30
53.908
  11
482.052813572676
  21
25
  31
53.908
  0
LINE
  8
0
  6
DASHED
  10
482.052813572676
  20
25
  30
53.908
  11
485.052813572676
  21
25
  31
53.908
  0
LINE
  8
0
  6
DASHED
  10
481.052813572676
  20
25
  30
53.908
  11
481.052813572676
  21
20
  31
53.908
  0
LINE
  8
0
  6
DASHED
  10
481.052813572676
  20
20
  30
53.908
  11
478.052813572676
  21
20
  31
53.908
  0
LINE
  8
0
  6
DASHED
  10
478.052813572676
  20
20
  30
53.908
  11
478.052813572676
  21
25
  31
53.908
  0
LINE
  8
0
  6
DASHED
  10
478.052813572676
  20
25
  30
53.908
  11
481.052813572676
  21
25
  31
53.908
  0
LINE
  8
0
  6
DASHED
  10
427.052813572676
  20
25
  30
53.908
  11
427.052813572676
  21
20
  31
53.908
  0
LINE
  8
0
  6
DASHED
  10
427.052813572676
  20
20
  30
53.908
  11
424.052813572676
  21
20
  31
53.908
  0
LINE
  8
0
  6
DASHED
  10
424.052813572676
  20
20
  30
53.908
  11
424.052813572676
  21
25
  31
53.908
  0
LINE
  8
0
  6
DASHED
  10
424.052813572676
  20
25
  30
53.908
  11
427.052813572676
  21
25
  31
53.908
  0
LINE
  8
0
  6
DASHED
  10
431.052813572676
  20
25
  30
53.908
  11
431.052813572676
  21
20
  31
53.908
  0
LINE
  8
0
  6
DASHED
  10
431.052813572676
  20
20
  30
53.908
  11
428.052813572676
  21
20
  31
53.908
  0
LINE
  8
0
  6
DASHED
  10
428.052813572676
  20
20
  30
53.908
  11
428.052813572676
  21
25
  31
53.908
  0
LINE
  8
0
  6
DASHED
  10
428.052813572676
  20
25
  30
53.908
  11
431.052813572676
  21
25
  31
53.908
  0
TEXT
  8
0
  40
2.54
  72
0
  10
451.052813572676
  20
10
  30
0
  1
Back
  50
0
  0
LINE
  8
0
  10
0
  20
10
  30
0
  11
0
  21
0
  31
0
  0
LINE
  8
0
  10
0
  20
10
  30
0
  11
10
  21
10
  31
0
  0
LINE
  8
0
  10
10
  20
0
  30
0
  11
10
  21
10
  31
0
  0
LINE
  8
0
  10
0
  20
0
  30
0
  11
10
  21
0
  31
0
  0
TEXT
  8
0
  40
1
  72
0
  10
0.5
  20
8
  30
0
  1
1 cm x 1 cm
  50
0
  0
TEXT
  8
0
  40
1
  72
0
  10
3
  20
5
  30
0
  1
scaling
  50
0
  0
TEXT
  8
0
  40
1
  72
0
  10
1.5
  20
2
  30
0
  1
reference
  50
0
  0
ENDSEC
  0
EOF
